Гитарный журнал
классическая гитара, акустическая, видео, видеошкола, гитара, гитарист, гитарная, гитары, джазовая, инструмент, инструментальная, испанская, начинающим, обучение, самоучитель, упражнения, уроки, учебник, фламенко, школа, трансляции

Богемская рапсодия: урок

0

Хотите научиться играть «Bohemian Rhapsody»? Нет ничего проще. В этом видео Edgar Cruz буквально на пальцах покажет, как это сделать. Смотрите внимательно; о результатах отчитайтесь!

Подсказка: на YouTube можно публиковать видеоответы, их же можно вставлять в комменты к нашим постингам. Не стесняйтесь публиковать свое видео! Лучшее может попасть к нам в рубрику «Мастер-класс».

1 Комментарий
  1. Smirnoff говорит

    ------------------------------------------------------------------------------
    -----------------11------------11^----------13--15-16-13--15-16-18------------
    -----10b12---10p8-----------12------------------------------------------------
    -8----------------------------------------------------------------------------
    ------------------------------------------------------------------------------
    ------------------------------------------------------------------------------

    -------15-16-18-18^-----18-16-15-16-15-16-15--15------------------------------
    ----18--------------------------h--p--h--p--18--18-16-18-16-15-16-15----------
    -17-----------------------------------------------p--h--p--p--h--p---17-15----
    -----------------------------------------------------------------------p------
    ------------------------------------------------------------------------------
    ------------------------------------------------------------------------------

    -------------------15-16-18---------------------15-16-18-18^------
    ----------15-16-18---------------------15-16-18---h--h--h---------
    ----15-17------------------------15-17---h--h---------------------
    -17--------------------------------h------------------------------
    ------------------------------------------------------------------ ------------------------------------------------------------------

    ------------------------------------------------------------------------------
    -15-16----15-16----15-16-18-----------------18-\-9----------------------------
    -------17-------17-----------------------------------18-18-18-\-6---7p6-------
    ---------------------------------15-17-18------------------------------7------
    ------------------------------------------------------------------------------
    ------------------------------------------------------------------------------

    …for meeeeeeeee
    ------------------------------------------------------------------------------
    ------------------------------------------------------------------------------
    ------------------------------------------------------------------------------
    ------------------------------------------------------------------------------
    -6-------3h5h6--6-----1h3h1--------6-------3h5h6--8-----3h5p3-----------------
    ---3h4-6----------3h4----------------3h4-6----------5h6-----------------------

    …right out of here
    ----------------------------------------------------------------
    ----------------------------------------------------------------
    ----------------------------------------------------------------
    ----------------------------------------------------------------
    -6-------3h5h6--6-----1h3p1--------6-------3h5h6--8-------5h7h8-
    ---3h4-6----------3h4----------------3h4-6----------5h6-8-------

    ------------------------------------------------------------------------------
    ----------------------------------------------4-5-----------------------------
    --------------------------------------4-6-4-6--h-------------------------3----
    -----8------10------11----------4-6-7--h-p-h-------------------3-4-3-4-6------
    -9h11---9h11---11h13--------6-7--h-h---------------------3-4-6--h-p-h-h-------
    -----------------------------h-----------------------4-6--h-h-----------------

    -----------------------6------------------------------------------------------
    -------------6---6-8-9-6------------------------------------------------------
    -7-5-7-5-7-8---7--h-h--7------------------------------------------------------
    --p-h-p-h-h------------8------------------------------------------------------
    -----------------------8------------------------------------------------------
    -----------------------6------------------------------------------------------

Оставьте ответ

Ваш электронный адрес не будет опубликован.